Theory Of A Deadman - Nothing Could Come Between Us (var.2) Bass tab download free or play online

Bass tab for Nothing Could Come Between Us (var.2) by Theory Of A Deadman free download and read or play online: file .txt, 2.23 kb has 65 views and 0 downloads.

Download bass tab "Nothing Could Come Between Us (var.2)" (Theory Of A Deadman)

Theory Of A Deadman Band name
Nothing Could Come Between Us Song name
Bass tabs Tab type
2.23 kb File size
.TXT File type
65 views
0 downloads
 
Are you robot?

Nothing Could Come Between Us (var.2) bass tab read and play online

                    Intro
Well I'm running back and forth
-------------------
-------------------
-4-----------------
-----------2------- 2X

verse
--------------------------
--------------------------
-2-4-4-4-44-2-------------
--------------2-2-2-22---- 5X

----------------
----------------
-2-4-4-4-44-2---
--------------2-

Chorus 2X
----------------------------
----------------------------
-44444444-22222222----------
-------------------22222222-

--------------
--------------
-4444-2222----
--------------

----------------------------
----------------------------
-44444444-22222222----------
-------------------22222222-

verse
--------------------------
--------------------------
-2-4-4-4-44-2-------------
--------------2-2-2-22---- 5X

----------------
----------------
-2-4-4-4-44-2---
--------------2-

Chorus 2X
----------------------------
----------------------------
-44444444-22222222----------
-------------------22222222-

--------------
--------------
-4444-2222----
--------------

----------------------------
----------------------------
-44444444-22222222----------
-------------------22222222-

Bridge
----------------------------
----------------------------
-44444444-22222222----------
-------------------22222222- 4X

------------------------------------
------------------------------------
-44444444-22222222------------------
-------------------2222222222222222- 2X

Chorus 4X
----------------------------
----------------------------
-44444444-22222222----------
-------------------22222222-

--------------
--------------
-4444-2222----
--------------

----------------------------
----------------------------
-44444444-22222222----------
-------------------22222222-                    

Comments for bass tab — Nothing Could Come Between Us (var.2) (Theory Of A Deadman)

Other Nothing Could Come Between Us (var.2) by Theory Of A Deadman tabs:

Last viewed Theory Of A Deadman tabs: